L långa

Lång bollar på Bengt  Svenne Rubins

Jag [Gm]tänker tillbaks på min [F]korta sejour [Gm] [TaF]b [Gm]1]
som tolvårig grabb i f[F]otbollsskor  [Gm] [TaF]b [Gm]1]
Jag [Bb]fick instruktioner,[F] jag skulle gå
som [D#]back till vänster och[D] tänka på
                                          [Tab 1] 
[Gm]att kämpa och springa [F]och bara s[Gm]lå, lå[F]nga bollar[Gm] på Bengt [Tab 2]

Refr.
[Gm]Långa [F]bollar [Tab 3] [Gm] långa[F] bollar [Tab 3]
[Gm]långa [F]bollar på [Gm]Bengt.

                                  [Tab 1] 
[Gm]Bengt, han var [F]påläggskalv, [Gm]långa [F]bollar på [Gm]Bengt.
                                         [Tab 1] 
[Gm]jag blev befodrad till [F]vänsterhalv, [Gm]långa [F]bollar på [Gm]Bengt.
Jag t[Bb]änkte, nu får jag min [F]chans, så befängt.
[D#]Det går så sällan[D] som man har tänkt.
Min [Gm]entusiasm kom på s[F]kam, den blev dränkt,
        [Tab 1] 
I [Gm]långa [F]bollar på [Gm]Bengt
[Tab 2] 

Refr.
[Gm]Långa [F]bollar [Tab 3] [Gm]långa [F]bollar [Tab 3]
[Gm]långa [F]bollar på [Gm]Bengt.


Mellanspel/solo Gm
e------------------------------------------------------3---
B-----------3--3---------------------------------------3---
G--------3--------3--5--55--2-----------3--------2-----3---
D-5--55------------------------3-----5-----5--3-----3--5---X2
A------------------------------------------------------5---
E------------------------------------------------------3---
e---------------------------------------------------------------
B------------3--3----------------------------------------43-----
G-2/3—33--5--------3--5--55--2----------------------------------
D-------------------------------3---3--1--3--5--3—-1--0---------
A---------------------------------------------------------------
E---------------------------------------------------------------

                                                      [Gm]        [Gm]   [G#m]       
e------------------------------------------------------3-------3--4-
B-----------3--3---------------------------------------3-------3--4-
G--------3--------3--5--55--2-----------3--------2-----3-------3--4-
D-5--55------------------------3-----5-----5--3-----3--5-------5--6-
A------------------------------------------------------5-------5--6-
E------------------------------------------------------3-------3—-4-



[G#m]En dag för inte längesen g[F#]ick jag mig till fotbollsplanen [Dm]ner,
      [Tab 4] 
[G#m]Långa [F#]bollar på [G#m]Bengt
                                                 [Tab 4] 
Döm om min förvåning![F#]  Vem tror ni jag ser? [G#m]Långa [F#]bollar på [G#m]Bengt
Jo, [B]Bengt som blivit tränare [F#]nu på äldre år,
och [E]center var hans egen grabb,[D#]  Bengt Junior.
                                              [Tab 4] 
[G#m]Resten fick order, se [F#]till att ni slår, [G#m]långa [F#]bollar på [G#m]Bengt [Tab 5]
[G#m]Långa [F#]bollar [Tab 6] [G#m]långa [F#]bollar [Tab 6]
[G#m]långa [F#]bollar på [G#m]Bengt. X4
Outro
                                                      [Gm]                  
e------------------------------------------------------4-
B-----------4--4---------------------------------------4-
G--------4--------4--6--66--3-----------4--------3-----4-
D-6--66------------------------4-----6-----6--4-----4--6-X2
A------------------------------------------------------6-
E------------------------------------------------------4-
e---------------------------------------------4---------------
B--------------4--4------------------4--5--7-----7--5--4—54---
G-3--4--44--6--------4--6--66--3------------------------------
D---------------------------------4---------------------------
A-------------------------------------------------------------
E-------------------------------------------------------------


                                                      [Gm]                 
e------------------------------------------------------4-
B-----------4--4---------------------------------------4-
G--------4--------4--6--66--3-----------4--------3-----4-
D-6--66------------------------4-----6-----6--4-----4--6-
A------------------------------------------------------6-
E------------------------------------------------------4-


                   [Gm]                     [Gm]              [Gm]                 
e-------------------4--------------------4------------11-
B-------------------4--------------------4------------12-
G----4--------3-----4---------4----------4------------13-
D-6-----6--4-----4--6------6-----6—4--4--6------------13-
A-------------------6--------------------6------------11-
E-------------------4--------------------4---------------

Tab 1
                   [Gm]                                                    
e-------------------3-
B-------------------3-
G----3--------2-----3-
D-5-----5--3-----3--5-
A-------------------5-
E-------------------3-



Tab 2
e------------
B------------
G-------3----
D-3--5-----5-
A------------
E------------



Tab 3
e------
B------
G------

[D-3--5-]                                                                       
A------
E------



Tab 4 G#m
e--------------------4-
B--------------------4-
G----4--------3------4-
D-6-----6--4-----4---6-
A--------------------6-
E--------------------4-

Tab 5
e------------
B------------
G-------4----
D-4--6-----6-
A------------
E------------



Tab 6
e------
B------
G------

[D-4--6-]                                                                       
A------
E------


Important: The song above is NOT stored on wwviypws. ugg veskenthe Chordie server. The original song is hosted at svenskatabbar.com. Chordie works as a search engine and provides on-the-fly formatting. Chordie does not index songs against artists'/composers' will. To remove this song please click here.

Normal Lyrics Chords Tabs ChordPro
Small Medium Large
Start Pause 1 2 3 4 5 6 7
Text color:
Chord color:
Chord grids: 
Font size:    
Page size: 

B Bb D D# Dm E F F# G#m Gm
variations - click chord images

Login - add to songbook